Skype Lessons Update

The response to our free Skype lessons has been just wonderful.
http://www.dailyfrail.com/free-skype-lessons/

I am scheduling every day and even some weekends.
Lots of new friends and pickers from around the USA, Canada, England and Scotland so far.

It is a real pleasure to give folks a leg up on our beloved banjo.
If you would like to join in just shoot me an email with your telephone number.
Be sure to let me know what you would like to cover.

I will call to set up a Skype session.

Peace to all,
Pat Costello (Dear Old Dad)

 

The Daily Frail 3/21/2006

Rosin The Beau : Lyrics

G                              C
I've traveled this world all over
    G                Em
And now to another I go,
      G                               C
And I know that good quarters are waiting
       G           D7        G
For to welcome old Rosin the Beau.
                         C
To welcome old Rosin the Beau
   G                     Em
To welcome old Rosin the Beau
  G                               C
I know that good quarters are waiting
       G           D7        G
For to welcome old Rosin the Beau.

Rosin The Beau: Tab

3/4 time, key of G, G tuning

        G                               C           G
D-----|---0---0---|-------|-0-0---0---|-2-2-------|---0---0---|
B-----|---0---0---|-0-----|---0---0---|---1---0^--|---0---0---|
G-----|-0-0---0---|---2-0-|---0---0---|---0-----2-|-0-0---0---|
D---0-|---0---0---|-------|---0---0---|---2-------|---0---0---|
G-----|-----0---0-|-------|-----0---0-|-----0-----|-----0---0-|
            Em                    G
D---------|---2-------|---2-----|---0---0---|-------|-0-0---0---|
B---0-----|---0-------|---0-----|---0---0---|-0-----|---0---0---|
G-----2-0-|---0---0^2-|---0-----|-0-0---0---|---2-0-|---0---0---|
D---------|-2-2-------|-2-2---0-|---0---0---|-------|---0---0---|
G---------|-----0-----|-----0---|-----0---0-|-------|-----0---0-|
    C           G           D7
D---2-2-------|---0---0---|-------|---0---0---|---0---0-|-0---0-|
B-----1---0---|---0---0---|-------|---0---0---|---0-----|---0---|
G-----0----^2-|-0-0---0---|---0-2-|-0-0---0---|-0-0-----|-------|
D-----2-------|---0---0---|-2-----|---0---0---|---0-----|-------|
G-------0-----|-----0---0-|-------|-----0---0-|-----0---|-------|
            C                   G               Em
D---0-2-4-|-5-5-----|-5-5-----|-0-----|-------|---2-------|---2-----|
B---------|---5---5-|---5---5-|---0---|-----0-|---0-------|---0-----|
G---------|---5-----|---5-----|-----2-|-0-2---|---0---0^2-|---0-----|
D---------|---5-----|---5-----|-------|-------|-2-2-------|-2-2---0-|
G---------|-----0---|-----0---|-------|-------|-----0-----|-----0---|
    G                               C           G          D7
D-----0---0---|-------|-0-0---0---|-2-2-------|---0---0---|-------|
B-----0---0---|-0-----|---0---0---|---1---0---|---0---0---|-------|
G---0-0---0---|---2-0-|---0---0---|---0----^2-|-0-0---0---|---0-2-|
D-----0---0---|-------|---0---0---|---2-------|---0---0---|-2-----|
G-------0---0-|-------|-----0---0-|-----0-----|-----0---0-|-------|
      G
D-----0---0---|---0---||-|
B-----0---0---|---0---||-|
G---0-0---0---|-0-0---||-|
D-----0---0---|---0---||-|
G-------0---0-|-----0-||-|

Download MP3

This workshop was recorded way back in 2006, so any sales or special offers mentioned have long since expired – but fret not! You can still find great deals at pik-ware.com! Be sure to check out our world famous Learn To Frail Package.