The Daily Frail 7/3/2006

Lynchburg Town:


    C                                     F       C
D -----2----2--2----+-----2-------2----+--3--3----3---2----
B --1--1-------1----+-----1-------1----+-----1-------------
G -----0-------2----+--0--0----0--0----+-----2-------------
D ------------------+------------------+-------------------
G -------0-------0--+-------0-------0--+-------0----0---0--

    G                  F                  C
D --0--0----0--0----+-----7----7--7----+--5--5-------5----
B -----0-------0----+--6--6-------6----+-----5----5--5----
G -----0-------0----+-----5-------5----+-----5-------5----
D ------------------+------------------+------------------
G -------0-------0--+-------0-------0--+-------0-------0--

     G        p           C
D ---0--0----2^0--0----+-----2-------2----
B ------0---------0----+--1--1----1--1----
G ------0---------0----+-----0-------0----
D ---------------------+------------------
G --------0---------0--+-------0-------0--

Download MP3

This workshop was recorded way back in 2006, so any sales or special offers mentioned have long since expired – but fret not! You can still find great deals at pik-ware.com! Be sure to check out our world famous Learn To Frail Package.

The Daily Frail 6/29/06

Chord Forms:

   C         F         G7
5-5-5-5   x-5-6-7   5-7-6-5

Download MP3

This workshop was recorded way back in 2006, so any sales or special offers mentioned have long since expired – but fret not! You can still find great deals at pik-ware.com! Be sure to check out our world famous Learn To Frail Package.

The Daily Frail 6/27/2006

    C
D --2^0-0-------2----+--2^0-0-------2----
B ------1----1--1----+------1----1--1----
G ------0-------0----+------0-------0----
D ------2-------2----+------2-------2----
G --------0-------0--+--------0-------0--

   F       C           G       C
D -3---2---0--------+-------------2----
B -------------1----+-------0--1--1----
G ------------------+--0^2--------0----
D ------------------+-------------2----
G ---0---0---0---0--+---------------0--

Download MP3

This workshop was recorded way back in 2006, so any sales or special offers mentioned have long since expired – but fret not! You can still find great deals at pik-ware.com! Be sure to check out our world famous Learn To Frail Package.

The Daily Frail 6/26/2006

   C
D ------2-------2----+-------2-------2----
B ------1-------1----+-------0-------1----
G ------0----0--0----+-------1----0--0----
D -0^2--2-------2----+--0^2--2-------2----
G --------0-------0--+---------0-------0--

    F         C            G       C
D ---^3--3-----^2--2----+-------------2----
B ---^1--2-----^1--1----+-------0--1--1----
G ---^2--1---------0----+--0^2--------0----
D --0^3--3----0^2--2----+-------------2----
G ---------0---------0--+---------------0--

Download MP3

This workshop was recorded way back in 2006, so any sales or special offers mentioned have long since expired – but fret not! You can still find great deals at pik-ware.com! Be sure to check out our world famous Learn To Frail Package.

The Daily Frail 6/14, 6/15 & 6/16 2006

Three Days of the Frail

Three for one daily frail workshops today. Trying to catch up on everything.

6/14:

Download MP3

6/15:

Download MP3

6/16:

Download MP3

This workshop was recorded way back in 2006, so any sales or special offers mentioned have long since expired – but fret not! You can still find great deals at pik-ware.com! Be sure to check out our world famous Learn To Frail Package.

The Daily Frail 6/12 & 6/13 2006

Two for one daily frails today to make up for yesterday.

This week we are going to work on some slide banjo licks.

No TAB today!

6/12:

Download MP3

6/13:

Download MP3

This workshop was recorded way back in 2006, so any sales or special offers mentioned have long since expired – but fret not! You can still find great deals at pik-ware.com! Be sure to check out our world famous Learn To Frail Package.

The Daily Frail 6/9/2006

Picking up where we left off yesterday, today we will look at working up a break to Home Sweet Home in C with a bluegrass flavor.

No TAB today!

Download MP3

This workshop was recorded way back in 2006, so any sales or special offers mentioned have long since expired – but fret not! You can still find great deals at pik-ware.com! Be sure to check out our world famous Learn To Frail Package.